  0
SECTION
  2
HEADER
  9
$ACADVER
  1
AC1015
  9
$ACADMAINTVER
 70
     6
  9
$DWGCODEPAGE
  3
ANSI_1254
  9
$INSBASE
 10
0.0
 20
0.0
 30
0.0
  9
$EXTMIN
 10
0.0
 20
0.0
 30
0.0
  9
$EXTMAX
 10
279.4
 20
215.9
 30
0.0
  9
$LIMMIN
 10
0.0
 20
0.0
  9
$LIMMAX
 10
279.4
 20
215.9
  9
$ORTHOMODE
 70
     0
  9
$REGENMODE
 70
     1
  9
$FILLMODE
 70
     1
  9
$QTEXTMODE
 70
     0
  9
$MIRRTEXT
 70
     1
  9
$LTSCALE
 40
1.0
  9
$ATTMODE
 70
     1
  9
$TEXTSIZE
 40
3.5
  9
$TRACEWID
 40
1.0
  9
$TEXTSTYLE
  7
Standard
  9
$CLAYER
  8
0
  9
$CELTYPE
  6
ByLayer
  9
$CECOLOR
 62
   256
  9
$CELTSCALE
 40
1.0
  9
$DISPSILH
 70
     0
  9
$DIMSCALE
 40
1.0
  9
$DIMASZ
 40
3.5
  9
$DIMEXO
 40
1.0
  9
$DIMDLI
 40
3.75
  9
$DIMRND
 40
0.0
  9
$DIMDLE
 40
0.0
  9
$DIMEXE
 40
1.0
  9
$DIMTP
 40
0.0
  9
$DIMTM
 40
0.0
  9
$DIMTXT
 40
3.5
  9
$DIMCEN
 40
2.5
  9
$DIMTSZ
 40
0.0
  9
$DIMTOL
 70
     0
  9
$DIMLIM
 70
     0
  9
$DIMTIH
 70
     1
  9
$DIMTOH
 70
     1
  9
$DIMSE1
 70
     0
  9
$DIMSE2
 70
     0
  9
$DIMTAD
 70
     1
  9
$DIMZIN
 70
     0
  9
$DIMBLK
  1

  9
$DIMASO
 70
     1
  9
$DIMSHO
 70
     1
  9
$DIMPOST
  1

  9
$DIMAPOST
  1

  9
$DIMALT
 70
     0
  9
$DIMALTD
 70
     3
  9
$DIMALTF
 40
0.0393700787
  9
$DIMLFAC
 40
1.0
  9
$DIMTOFL
 70
     1
  9
$DIMTVP
 40
0.0
  9
$DIMTIX
 70
     0
  9
$DIMSOXD
 70
     0
  9
$DIMSAH
 70
     0
  9
$DIMBLK1
  1

  9
$DIMBLK2
  1

  9
$DIMSTYLE
  2
ISO-25
  9
$DIMCLRD
 70
     0
  9
$DIMCLRE
 70
     0
  9
$DIMCLRT
 70
     0
  9
$DIMTFAC
 40
1.0
  9
$DIMGAP
 40
1.524
  9
$DIMJUST
 70
     0
  9
$DIMSD1
 70
     0
  9
$DIMSD2
 70
     0
  9
$DIMTOLJ
 70
     0
  9
$DIMTZIN
 70
     0
  9
$DIMALTZ
 70
     0
  9
$DIMALTTZ
 70
     0
  9
$DIMUPT
 70
     0
  9
$DIMDEC
 70
     2
  9
$DIMTDEC
 70
     2
  9
$DIMALTU
 70
     2
  9
$DIMALTTD
 70
     3
  9
$DIMTXSTY
  7
Standard
  9
$DIMAUNIT
 70
     0
  9
$DIMADEC
 70
     2
  9
$DIMALTRND
 40
0.0
  9
$DIMAZIN
 70
     0
  9
$DIMDSEP
 70
    44
  9
$DIMATFIT
 70
     3
  9
$DIMFRAC
 70
     0
  9
$DIMLDRBLK
  1

  9
$DIMLUNIT
 70
     2
  9
$DIMLWD
 70
    -2
  9
$DIMLWE
 70
    -2
  9
$DIMTMOVE
 70
     0
  9
$LUNITS
 70
     2
  9
$LUPREC
 70
     2
  9
$SKETCHINC
 40
1.0
  9
$FILLETRAD
 40
10.0
  9
$AUNITS
 70
     0
  9
$AUPREC
 70
     2
  9
$MENU
  1
.
  9
$ELEVATION
 40
0.0
  9
$PELEVATION
 40
0.0
  9
$THICKNESS
 40
0.0
  9
$LIMCHECK
 70
     0
  9
$CHAMFERA
 40
0.0
  9
$CHAMFERB
 40
0.0
  9
$CHAMFERC
 40
0.0
  9
$CHAMFERD
 40
0.0
  9
$SKPOLY
 70
     0
  9
$TDCREATE
 40
2458985.636290903
  9
$TDUCREATE
 40
2458985.511290903
  9
$TDUPDATE
 40
2458985.636291157
  9
$TDUUPDATE
 40
2458985.511291157
  9
$TDINDWG
 40
0.0000000116
  9
$TDUSRTIMER
 40
0.0000000116
  9
$USRTIMER
 70
     1
  9
$ANGBASE
 50
0.0
  9
$ANGDIR
 70
     0
  9
$PDMODE
 70
     0
  9
$PDSIZE
 40
-1.0
  9
$PLINEWID
 40
0.0
  9
$SPLFRAME
 70
     0
  9
$SPLINETYPE
 70
     6
  9
$SPLINESEGS
 70
     8
  9
$HANDSEED
  5
CC
  9
$SURFTAB1
 70
     6
  9
$SURFTAB2
 70
     6
  9
$SURFTYPE
 70
     6
  9
$SURFU
 70
     6
  9
$SURFV
 70
     6
  9
$UCSBASE
  2

  9
$UCSNAME
  2

  9
$UCSORG
 10
0.0
 20
0.0
 30
0.0
  9
$UCSXDIR
 10
1.0
 20
0.0
 30
0.0
  9
$UCSYDIR
 10
0.0
 20
1.0
 30
0.0
  9
$UCSORTHOREF
  2

  9
$UCSORTHOVIEW
 70
     0
  9
$UCSORGTOP
 10
0.0
 20
0.0
 30
0.0
  9
$UCSORGBOTTOM
 10
0.0
 20
0.0
 30
0.0
  9
$UCSORGLEFT
 10
0.0
 20
0.0
 30
0.0
  9
$UCSORGRIGHT
 10
0.0
 20
0.0
 30
0.0
  9
$UCSORGFRONT
 10
0.0
 20
0.0
 30
0.0
  9
$UCSORGBACK
 10
0.0
 20
0.0
 30
0.0
  9
$PUCSBASE
  2

  9
$PUCSNAME
  2

  9
$PUCSORG
 10
0.0
 20
0.0
 30
0.0
  9
$PUCSXDIR
 10
1.0
 20
0.0
 30
0.0
  9
$PUCSYDIR
 10
0.0
 20
1.0
 30
0.0
  9
$PUCSORTHOREF
  2

  9
$PUCSORTHOVIEW
 70
     0
  9
$PUCSORGTOP
 10
0.0
 20
0.0
 30
0.0
  9
$PUCSORGBOTTOM
 10
0.0
 20
0.0
 30
0.0
  9
$PUCSORGLEFT
 10
0.0
 20
0.0
 30
0.0
  9
$PUCSORGRIGHT
 10
0.0
 20
0.0
 30
0.0
  9
$PUCSORGFRONT
 10
0.0
 20
0.0
 30
0.0
  9
$PUCSORGBACK
 10
0.0
 20
0.0
 30
0.0
  9
$USERI1
 70
     0
  9
$USERI2
 70
     0
  9
$USERI3
 70
     0
  9
$USERI4
 70
     0
  9
$USERI5
 70
     0
  9
$USERR1
 40
0.0
  9
$USERR2
 40
0.0
  9
$USERR3
 40
0.0
  9
$USERR4
 40
0.0
  9
$USERR5
 40
0.0
  9
$WORLDVIEW
 70
     1
  9
$SHADEDGE
 70
     3
  9
$SHADEDIF
 70
    70
  9
$TILEMODE
 70
     1
  9
$MAXACTVP
 70
    64
  9
$PINSBASE
 10
0.0
 20
0.0
 30
0.0
  9
$PLIMCHECK
 70
     0
  9
$PEXTMIN
 10
1.0000000000E+20
 20
1.0000000000E+20
 30
1.0000000000E+20
  9
$PEXTMAX
 10
-1.0000000000E+20
 20
-1.0000000000E+20
 30
-1.0000000000E+20
  9
$PLIMMIN
 10
0.0
 20
0.0
  9
$PLIMMAX
 10
420.0
 20
297.0
  9
$UNITMODE
 70
     0
  9
$VISRETAIN
 70
     1
  9
$PLINEGEN
 70
     0
  9
$PSLTSCALE
 70
     1
  9
$TREEDEPTH
 70
  3020
  9
$CMLSTYLE
  2
Standard
  9
$CMLJUST
 70
     0
  9
$CMLSCALE
 40
20.0
  9
$PROXYGRAPHICS
 70
     1
  9
$MEASUREMENT
 70
     1
  9
$CELWEIGHT
370
    -1
  9
$ENDCAPS
280
     0
  9
$JOINSTYLE
280
     0
  9
$LWDISPLAY
290
     1
  9
$INSUNITS
 70
     4
  9
$HYPERLINKBASE
  1

  9
$STYLESHEET
  1

  9
$XEDIT
290
     1
  9
$CEPSNTYPE
380
     0
  9
$PSTYLEMODE
290
     1
  9
$FINGERPRINTGUID
  2
{88b31084-5064-4f6a-8948-df972b36f05d}
  9
$VERSIONGUID
  2
{FAEB1C32-E019-11D5-929B-00C0DF256EC4}
  9
$EXTNAMES
290
     1
  9
$PSVPSCALE
 40
0.0
  9
$OLESTARTUP
290
     0
  0
ENDSEC
  0
SECTION
  2
CLASSES
  0
CLASS
  1
ACDBDICTIONARYWDFLT
  2
AcDbDictionaryWithDefault
  3
ObjectDBX Classes
 90
        0
280
     0
281
     0
  0
CLASS
  1
VISUALSTYLE
  2
AcDbVisualStyle
  3
ObjectDBX Classes
 90
     4095
280
     0
281
     0
  0
CLASS
  1
MATERIAL
  2
AcDbMaterial
  3
ObjectDBX Classes
 90
     1153
280
     0
281
     0
  0
CLASS
  1
SCALE
  2
AcDbScale
  3
ObjectDBX Classes
 90
     1153
280
     0
281
     0
  0
CLASS
  1
TABLESTYLE
  2
AcDbTableStyle
  3
ObjectDBX Classes
 90
     4095
280
     0
281
     0
  0
CLASS
  1
MLEADERSTYLE
  2
AcDbMLeaderStyle
  3
ACDB_MLEADERSTYLE_CLASS
 90
     4095
280
     0
281
     0
  0
CLASS
  1
SUN
  2
AcDbSun
  3
SCENEOE
 90
     1153
280
     0
281
     0
  0
CLASS
  1
ACDBPLACEHOLDER
  2
AcDbPlaceHolder
  3
ObjectDBX Classes
 90
        0
280
     0
281
     0
  0
CLASS
  1
LAYOUT
  2
AcDbLayout
  3
ObjectDBX Classes
 90
        0
280
     0
281
     0
  0
ENDSEC
  0
SECTION
  2
TABLES
  0
TABLE
  2
VPORT
  5
8
330
0
100
AcDbSymbolTable
 70
     1
  0
VPORT
  5
29
330
8
100
AcDbSymbolTableRecord
100
AcDbViewportTableRecord
  2
*Active
 70
     0
 10
0.0
 20
0.0
 11
1.0
 21
1.0
 12
139.7
 22
107.95
 13
0.0
 23
0.0
 14
10.0
 24
10.0
 15
10.0
 25
10.0
 16
0.0
 26
0.0
 36
1.0
 17
0.0
 27
0.0
 37
0.0
 40
215.9
 41
1.2941176471
 42
50.0
 43
0.0
 44
0.0
 50
0.0
 51
0.0
 71
     0
 72
  2000
 73
     1
 74
     3
 75
     0
 76
     0
 77
     0
 78
     0
281
     0
 65
     1
110
0.0
120
0.0
130
0.0
111
1.0
121
0.0
131
0.0
112
0.0
122
1.0
132
0.0
 79
     0
146
0.0
  0
ENDTAB
  0
TABLE
  2
LTYPE
  5
5
330
0
100
AcDbSymbolTable
 70
     6
  0
LTYPE
  5
14
330
5
100
AcDbSymbolTableRecord
100
AcDbLinetypeTableRecord
  2
ByBlock
 70
     0
  3

 72
    65
 73
     0
 40
0.0
  0
LTYPE
  5
15
330
5
100
AcDbSymbolTableRecord
100
AcDbLinetypeTableRecord
  2
ByLayer
 70
     0
  3

 72
    65
 73
     0
 40
0.0
  0
LTYPE
  5
16
330
5
100
AcDbSymbolTableRecord
100
AcDbLinetypeTableRecord
  2
Continuous
 70
     0
  3
Solid line
 72
    65
 73
     0
 40
0.0
  0
LTYPE
  5
6E
330
5
100
AcDbSymbolTableRecord
100
AcDbLinetypeTableRecord
  2
HIDDEN
 70
     0
  3
Hidden __ __ __ __ __ __ __ __ __ __ __ __ __ __
 72
    65
 73
     2
 40
1.905
 49
1.27
 74
     0
 49
-0.635
 74
     0
  0
LTYPE
  5
6F
330
5
100
AcDbSymbolTableRecord
100
AcDbLinetypeTableRecord
  2
PHANTOM
 70
     0
  3
Phantom ______  __  __  ______  __  __  ______
 72
    65
 73
     6
 40
12.7
 49
6.35
 74
     0
 49
-1.27
 74
     0
 49
1.27
 74
     0
 49
-1.27
 74
     0
 49
1.27
 74
     0
 49
-1.27
 74
     0
  0
LTYPE
  5
70
330
5
100
AcDbSymbolTableRecord
100
AcDbLinetypeTableRecord
  2
CENTER
 70
     0
  3
Center ____ _ ____ _ ____ _ ____ _ ____ _ ____
 72
    65
 73
     4
 40
10.16
 49
6.35
 74
     0
 49
-1.27
 74
     0
 49
1.27
 74
     0
 49
-1.27
 74
     0
  0
LTYPE
  5
71
330
5
100
AcDbSymbolTableRecord
100
AcDbLinetypeTableRecord
  2
CENTERX2
 70
     0
  3
Center (2x) ________  __  ________  __  _____
 72
    65
 73
     4
 40
20.32
 49
12.7
 74
     0
 49
-2.54
 74
     0
 49
2.54
 74
     0
 49
-2.54
 74
     0
  0
LTYPE
  5
72
330
5
100
AcDbSymbolTableRecord
100
AcDbLinetypeTableRecord
  2
DOT2
 70
     0
  3
Dot (.5x) ........................................
 72
    65
 73
     2
 40
0.635
 49
0.0
 74
     0
 49
-0.635
 74
     0
  0
ENDTAB
  0
TABLE
  2
LAYER
  5
2
330
0
100
AcDbSymbolTable
 70
    17
  0
LAYER
  5
10
330
2
100
AcDbSymbolTableRecord
100
AcDbLayerTableRecord
  2
0
 70
     0
 62
     7
  6
Continuous
370
    -3
390
F
  0
LAYER
  5
73
330
2
100
AcDbSymbolTableRecord
100
AcDbLayerTableRecord
  2
FORMAT
 70
     0
 62
     7
  6
Continuous
370
    -3
390
F
  0
LAYER
  5
74
330
2
100
AcDbSymbolTableRecord
100
AcDbLayerTableRecord
  2
YARDIMCI_GEOMETRI
 70
     0
 62
    -6
  6
Continuous
290
     0
370
    -3
390
F
  0
LAYER
  5
75
330
2
100
AcDbSymbolTableRecord
100
AcDbLayerTableRecord
  2
SAYFA_CERCEVESI
 70
     0
 62
     7
  6
Continuous
370
    25
390
F
  0
LAYER
  5
76
330
2
100
AcDbSymbolTableRecord
100
AcDbLayerTableRecord
  2
ANTET
 70
     0
 62
     7
  6
Continuous
370
    -3
390
F
  0
LAYER
  5
77
330
2
100
AcDbSymbolTableRecord
100
AcDbLayerTableRecord
  2
OLCU
 70
     0
 62
   150
  6
Continuous
370
    -3
390
F
  0
LAYER
  5
78
330
2
100
AcDbSymbolTableRecord
100
AcDbLayerTableRecord
  2
METIN
 70
     0
 62
    96
  6
Continuous
370
    -3
390
F
  0
LAYER
  5
79
330
2
100
AcDbSymbolTableRecord
100
AcDbLayerTableRecord
  2
BALON
 70
     0
 62
     5
  6
Continuous
370
    -3
390
F
  0
LAYER
  5
7A
330
2
100
AcDbSymbolTableRecord
100
AcDbLayerTableRecord
  2
VURGU
 70
     0
 62
     7
  6
Continuous
370
    -3
390
F
  0
LAYER
  5
7B
330
2
100
AcDbSymbolTableRecord
100
AcDbLayerTableRecord
  2
SILIK
 70
     0
 62
     7
  6
Continuous
370
    -3
390
F
  0
LAYER
  5
7C
330
2
100
AcDbSymbolTableRecord
100
AcDbLayerTableRecord
  2
MODEL
 70
     0
 62
     7
  6
Continuous
370
    -3
390
F
  0
LAYER
  5
7D
330
2
100
AcDbSymbolTableRecord
100
AcDbLayerTableRecord
  2
DETAYLANDıRMA
 70
     0
 62
   190
  6
Continuous
370
    -3
390
F
  0
LAYER
  5
7E
330
2
100
AcDbSymbolTableRecord
100
AcDbLayerTableRecord
  2
TOLERANS
 70
     0
 62
   230
  6
Continuous
370
    -3
390
F
  0
LAYER
  5
7F
330
2
100
AcDbSymbolTableRecord
100
AcDbLayerTableRecord
  2
MERKEZ_CIZGILERI
 70
     0
 62
    30
  6
Continuous
370
    -3
390
F
  0
LAYER
  5
80
330
2
100
AcDbSymbolTableRecord
100
AcDbLayerTableRecord
  2
KESIT-DETAY_CIZGILERI
 70
     0
 62
     7
  6
Continuous
370
    -3
390
F
  0
LAYER
  5
81
330
2
100
AcDbSymbolTableRecord
100
AcDbLayerTableRecord
  2
\U+041E\U+0421\U+0415\U+0412\U+042B\U+0415
 70
     0
 62
     7
  6
Continuous
370
    -3
390
F
  0
LAYER
  5
82
330
2
100
AcDbSymbolTableRecord
100
AcDbLayerTableRecord
  2
\U+0412\U+041E\U+0414\U+042F\U+041D\U+042B\U+0415_\U+0417\U+041D\U+0410\U+041A\U+0418
 70
     0
 62
    11
  6
Continuous
370
    -3
390
F
  0
ENDTAB
  0
TABLE
  2
STYLE
  5
3
330
0
100
AcDbSymbolTable
 70
     1
  0
STYLE
  5
11
330
3
100
AcDbSymbolTableRecord
100
AcDbTextStyleTableRecord
  2
Standard
 70
     0
 40
0.0
 41
1.0
 50
0.0
 71
     0
 42
3.5
  3
txt
  4

  0
ENDTAB
  0
TABLE
  2
VIEW
  5
6
330
0
100
AcDbSymbolTable
 70
     0
  0
ENDTAB
  0
TABLE
  2
UCS
  5
7
330
0
100
AcDbSymbolTable
 70
     0
  0
ENDTAB
  0
TABLE
  2
APPID
  5
9
330
0
100
AcDbSymbolTable
 70
     1
  0
APPID
  5
12
330
9
100
AcDbSymbolTableRecord
100
AcDbRegAppTableRecord
  2
ACAD
 70
     0
  0
ENDTAB
  0
TABLE
  2
DIMSTYLE
  5
A
330
0
100
AcDbSymbolTable
 70
     1
100
AcDbDimStyleTable
  0
DIMSTYLE
105
27
330
A
100
AcDbSymbolTableRecord
100
AcDbDimStyleTableRecord
  2
ISO-25
 70
     0
 41
2.5
 42
0.625
 43
3.75
 44
1.25
 73
     0
 74
     0
 77
     1
 78
     8
140
2.5
141
2.5
143
0.0393700787
147
0.625
171
     3
172
     1
178
     0
271
     2
272
     2
274
     3
278
    44
283
     0
284
     8
340
11
  0
ENDTAB
  0
TABLE
  2
BLOCK_RECORD
  5
1
330
0
100
AcDbSymbolTable
 70
     2
  0
BLOCK_RECORD
  5
1F
330
1
100
AcDbSymbolTableRecord
100
AcDbBlockTableRecord
  2
*Model_Space
340
22
  0
BLOCK_RECORD
  5
1B
330
1
100
AcDbSymbolTableRecord
100
AcDbBlockTableRecord
  2
*Paper_Space
340
1E
  0
BLOCK_RECORD
  5
23
330
1
100
AcDbSymbolTableRecord
100
AcDbBlockTableRecord
  2
*Paper_Space0
340
26
  0
BLOCK_RECORD
  5
87
330
1
100
AcDbSymbolTableRecord
100
AcDbBlockTableRecord
  2
SW_CENTERMARKSYMBOL_0
340
0
102
{BLKREFS
331
92
102
}
  0
ENDTAB
  0
ENDSEC
  0
SECTION
  2
BLOCKS
  0
BLOCK
  5
20
330
1F
100
AcDbEntity
  8
0
100
AcDbBlockBegin
  2
*Model_Space
 70
     0
 10
0.0
 20
0.0
 30
0.0
  3
*Model_Space
  1

  0
ENDBLK
  5
21
330
1F
100
AcDbEntity
  8
0
100
AcDbBlockEnd
  0
BLOCK
  5
1C
330
1B
100
AcDbEntity
 67
     1
  8
0
100
AcDbBlockBegin
  2
*Paper_Space
 70
     0
 10
0.0
 20
0.0
 30
0.0
  3
*Paper_Space
  1

  0
ENDBLK
  5
1D
330
1B
100
AcDbEntity
 67
     1
  8
0
100
AcDbBlockEnd
  0
BLOCK
  5
24
330
23
100
AcDbEntity
  8
0
100
AcDbBlockBegin
  2
*Paper_Space0
 70
     0
 10
0.0
 20
0.0
 30
0.0
  3
*Paper_Space0
  1

  0
ENDBLK
  5
25
330
23
100
AcDbEntity
  8
0
100
AcDbBlockEnd
  0
BLOCK
  5
88
330
87
100
AcDbEntity
  8
0
100
AcDbBlockBegin
  2
SW_CENTERMARKSYMBOL_0
 70
     0
 10
0.0
 20
0.0
 30
0.0
  3
SW_CENTERMARKSYMBOL_0
  1

  0
LINE
  5
8A
330
87
100
AcDbEntity
  8
FORMAT
 62
     0
100
AcDbLine
 10
0.0
 20
0.0
 30
0.0
 11
0.0
 21
2.5
 31
0.0
  0
LINE
  5
8B
330
87
100
AcDbEntity
  8
FORMAT
 62
     0
100
AcDbLine
 10
0.0
 20
0.0
 30
0.0
 11
-2.5
 21
0.0
 31
0.0
  0
LINE
  5
8C
330
87
100
AcDbEntity
  8
FORMAT
 62
     0
100
AcDbLine
 10
0.0
 20
0.0
 30
0.0
 11
0.0
 21
-2.5
 31
0.0
  0
LINE
  5
8D
330
87
100
AcDbEntity
  8
FORMAT
 62
     0
100
AcDbLine
 10
0.0
 20
0.0
 30
0.0
 11
2.5
 21
0.0
 31
0.0
  0
LINE
  5
8E
330
87
100
AcDbEntity
  8
FORMAT
 62
     0
100
AcDbLine
 10
0.0
 20
5.0
 30
0.0
 11
0.0
 21
62.0
 31
0.0
  0
LINE
  5
8F
330
87
100
AcDbEntity
  8
FORMAT
 62
     0
100
AcDbLine
 10
-5.0
 20
0.0
 30
0.0
 11
-62.0
 21
0.0
 31
0.0
  0
LINE
  5
90
330
87
100
AcDbEntity
  8
FORMAT
 62
     0
100
AcDbLine
 10
0.0
 20
-5.0
 30
0.0
 11
0.0
 21
-62.0
 31
0.0
  0
LINE
  5
91
330
87
100
AcDbEntity
  8
FORMAT
 62
     0
100
AcDbLine
 10
5.0
 20
0.0
 30
0.0
 11
62.0
 21
0.0
 31
0.0
  0
ENDBLK
  5
89
330
87
100
AcDbEntity
  8
0
100
AcDbBlockEnd
  0
ENDSEC
  0
SECTION
  2
ENTITIES
  0
CIRCLE
  5
83
330
1F
100
AcDbEntity
  8
0
  6
Continuous
 62
     7
370
    25
100
AcDbCircle
 10
139.4318125777
 20
108.489727108
 30
0.0
 40
37.49999999999999
  0
CIRCLE
  5
84
330
1F
100
AcDbEntity
  8
0
  6
Continuous
 62
     7
370
    25
100
AcDbCircle
 10
139.4318125777
 20
108.489727108
 30
0.0
 40
30.69999999999999
  0
CIRCLE
  5
85
330
1F
100
AcDbEntity
  8
0
  6
Continuous
 62
     7
370
    25
100
AcDbCircle
 10
139.4318125777
 20
108.489727108
 30
0.0
 40
46.00000000000001
  0
CIRCLE
  5
86
330
1F
100
AcDbEntity
  8
0
  6
Continuous
 62
     7
370
    25
100
AcDbCircle
 10
139.4318125777
 20
108.489727108
 30
0.0
 40
59.50000000000001
  0
INSERT
  5
92
330
1F
100
AcDbEntity
  8
FORMAT
 62
     7
100
AcDbBlockReference
  2
SW_CENTERMARKSYMBOL_0
 10
139.4318125777
 20
108.489727108
 30
0.0
  0
LINE
  5
93
330
1F
100
AcDbEntity
  8
0
  6
Continuous
 62
     7
370
    25
100
AcDbLine
 10
198.9318125777
 20
256.9719737559
 30
0.0
 11
198.9318125777
 21
272.9719737559
 31
0.0
  0
LINE
  5
94
330
1F
100
AcDbEntity
  8
0
  6
Continuous
 62
     7
370
    25
100
AcDbLine
 10
79.9318125777
 20
272.9719737559
 30
0.0
 11
79.9318125777
 21
256.9719737559
 31
0.0
  0
LINE
  5
95
330
1F
100
AcDbEntity
  8
0
  6
Continuous
 62
     7
370
    25
100
AcDbLine
 10
185.4318125777
 20
272.9719737559
 30
0.0
 11
176.9318125777
 21
289.9719737559
 31
0.0
  0
LINE
  5
96
330
1F
100
AcDbEntity
  8
0
  6
Continuous
 62
     7
370
    25
100
AcDbLine
 10
101.9318125777
 20
289.9719737559
 30
0.0
 11
93.4318125777
 21
272.9719737559
 31
0.0
  0
LINE
  5
97
330
1F
100
AcDbEntity
  8
0
  6
Continuous
 62
     7
370
    25
100
AcDbLine
 10
176.9318125777
 20
289.9719737559
 30
0.0
 11
176.9318125777
 21
386.9719737559
 31
0.0
  0
LINE
  5
98
330
1F
100
AcDbEntity
  8
0
  6
Continuous
 62
     7
370
    25
100
AcDbLine
 10
101.9318125777
 20
386.9719737559
 30
0.0
 11
101.9318125777
 21
289.9719737559
 31
0.0
  0
LINE
  5
99
330
1F
100
AcDbEntity
  8
0
  6
Continuous
 62
     7
370
    25
100
AcDbLine
 10
198.9318125777
 20
256.9719737559
 30
0.0
 11
79.9318125777
 21
256.9719737559
 31
0.0
  0
LINE
  5
9A
330
1F
100
AcDbEntity
  8
0
  6
Continuous
 62
     7
370
    25
100
AcDbLine
 10
198.9318125777
 20
272.9719737559
 30
0.0
 11
79.9318125777
 21
272.9719737559
 31
0.0
  0
LINE
  5
9B
330
1F
100
AcDbEntity
  8
0
  6
Continuous
 62
     7
370
    25
100
AcDbLine
 10
176.9318125777
 20
289.9719737559
 30
0.0
 11
101.9318125777
 21
289.9719737559
 31
0.0
  0
LINE
  5
9C
330
1F
100
AcDbEntity
  8
0
  6
Continuous
 62
     7
370
    25
100
AcDbLine
 10
176.9318125777
 20
386.9719737559
 30
0.0
 11
101.9318125777
 21
386.9719737559
 31
0.0
  0
LINE
  5
9D
330
1F
100
AcDbEntity
  8
0
  6
Continuous
 62
     7
370
    25
100
AcDbLine
 10
356.4739688635
 20
48.989727108
 30
0.0
 11
372.4739688635
 21
48.989727108
 31
0.0
  0
LINE
  5
9E
330
1F
100
AcDbEntity
  8
0
  6
Continuous
 62
     7
370
    25
100
AcDbLine
 10
372.4739688635
 20
167.989727108
 30
0.0
 11
356.4739688635
 21
167.989727108
 31
0.0
  0
LINE
  5
9F
330
1F
100
AcDbEntity
  8
0
  6
Continuous
 62
     7
370
    25
100
AcDbLine
 10
372.4739688635
 20
62.489727108
 30
0.0
 11
389.4739688635
 21
70.989727108
 31
0.0
  0
LINE
  5
A0
330
1F
100
AcDbEntity
  8
0
  6
Continuous
 62
     7
370
    25
100
AcDbLine
 10
389.4739688635
 20
145.989727108
 30
0.0
 11
372.4739688635
 21
154.489727108
 31
0.0
  0
LINE
  5
A1
330
1F
100
AcDbEntity
  8
0
  6
Continuous
 62
     7
370
    25
100
AcDbLine
 10
389.4739688635
 20
70.989727108
 30
0.0
 11
486.4739688635
 21
70.989727108
 31
0.0
  0
LINE
  5
A2
330
1F
100
AcDbEntity
  8
0
  6
Continuous
 62
     7
370
    25
100
AcDbLine
 10
486.4739688635
 20
145.989727108
 30
0.0
 11
389.4739688635
 21
145.989727108
 31
0.0
  0
LINE
  5
A3
330
1F
100
AcDbEntity
  8
0
  6
Continuous
 62
     7
370
    25
100
AcDbLine
 10
356.4739688635
 20
108.489727108
 30
0.0
 11
356.4739688635
 21
167.989727108
 31
0.0
  0
LINE
  5
A4
330
1F
100
AcDbEntity
  8
0
  6
Continuous
 62
     7
370
    25
100
AcDbLine
 10
356.4739688635
 20
48.989727108
 30
0.0
 11
356.4739688635
 21
108.489727108
 31
0.0
  0
LINE
  5
A5
330
1F
100
AcDbEntity
  8
0
  6
Continuous
 62
     7
370
    25
100
AcDbLine
 10
372.4739688635
 20
108.489727108
 30
0.0
 11
372.4739688635
 21
167.989727108
 31
0.0
  0
LINE
  5
A6
330
1F
100
AcDbEntity
  8
0
  6
Continuous
 62
     7
370
    25
100
AcDbLine
 10
372.4739688635
 20
48.989727108
 30
0.0
 11
372.4739688635
 21
108.489727108
 31
0.0
  0
LINE
  5
A7
330
1F
100
AcDbEntity
  8
0
  6
Continuous
 62
     7
370
    25
100
AcDbLine
 10
389.4739688635
 20
108.489727108
 30
0.0
 11
389.4739688635
 21
145.989727108
 31
0.0
  0
LINE
  5
A8
330
1F
100
AcDbEntity
  8
0
  6
Continuous
 62
     7
370
    25
100
AcDbLine
 10
389.4739688635
 20
70.989727108
 30
0.0
 11
389.4739688635
 21
108.489727108
 31
0.0
  0
LINE
  5
A9
330
1F
100
AcDbEntity
  8
0
  6
Continuous
 62
     7
370
    25
100
AcDbLine
 10
486.4739688635
 20
108.489727108
 30
0.0
 11
486.4739688635
 21
145.989727108
 31
0.0
  0
LINE
  5
AA
330
1F
100
AcDbEntity
  8
0
  6
Continuous
 62
     7
370
    25
100
AcDbLine
 10
486.4739688635
 20
70.989727108
 30
0.0
 11
486.4739688635
 21
108.489727108
 31
0.0
  0
LINE
  5
AB
330
1F
100
AcDbEntity
  8
0
  6
Continuous
 62
     7
370
    25
100
AcDbLine
 10
-44.1730772548
 20
167.989727108
 30
0.0
 11
-60.1730772548
 21
167.989727108
 31
0.0
  0
LINE
  5
AC
330
1F
100
AcDbEntity
  8
0
  6
Continuous
 62
     7
370
    25
100
AcDbLine
 10
-60.1730772548
 20
48.989727108
 30
0.0
 11
-44.1730772548
 21
48.989727108
 31
0.0
  0
LINE
  5
AD
330
1F
100
AcDbEntity
  8
0
  6
Continuous
 62
     7
370
    25
100
AcDbLine
 10
-60.1730772548
 20
154.489727108
 30
0.0
 11
-77.1730772548
 21
145.989727108
 31
0.0
  0
LINE
  5
AE
330
1F
100
AcDbEntity
  8
0
  6
Continuous
 62
     7
370
    25
100
AcDbLine
 10
-77.1730772548
 20
70.989727108
 30
0.0
 11
-60.1730772548
 21
62.489727108
 31
0.0
  0
LINE
  5
AF
330
1F
100
AcDbEntity
  8
0
  6
Continuous
 62
     7
370
    25
100
AcDbLine
 10
-77.1730772548
 20
145.989727108
 30
0.0
 11
-174.1730772548
 21
145.989727108
 31
0.0
  0
LINE
  5
B0
330
1F
100
AcDbEntity
  8
0
  6
Continuous
 62
     7
370
    25
100
AcDbLine
 10
-174.1730772548
 20
70.989727108
 30
0.0
 11
-77.1730772548
 21
70.989727108
 31
0.0
  0
LINE
  5
B1
330
1F
100
AcDbEntity
  8
0
  6
Continuous
 62
     7
370
    25
100
AcDbLine
 10
-44.1730772548
 20
167.989727108
 30
0.0
 11
-44.1730772548
 21
48.989727108
 31
0.0
  0
LINE
  5
B2
330
1F
100
AcDbEntity
  8
0
  6
Continuous
 62
     7
370
    25
100
AcDbLine
 10
-60.1730772548
 20
167.989727108
 30
0.0
 11
-60.1730772548
 21
48.989727108
 31
0.0
  0
LINE
  5
B3
330
1F
100
AcDbEntity
  8
0
  6
Continuous
 62
     7
370
    25
100
AcDbLine
 10
-77.1730772548
 20
145.989727108
 30
0.0
 11
-77.1730772548
 21
70.989727108
 31
0.0
  0
LINE
  5
B4
330
1F
100
AcDbEntity
  8
0
  6
Continuous
 62
     7
370
    25
100
AcDbLine
 10
-174.1730772548
 20
145.989727108
 30
0.0
 11
-174.1730772548
 21
70.989727108
 31
0.0
  0
LINE
  5
B5
330
1F
100
AcDbEntity
  8
0
  6
Continuous
 62
     7
370
    25
100
AcDbLine
 10
79.9318125777
 20
-49.9257189698
 30
0.0
 11
79.9318125777
 21
-65.9257189698
 31
0.0
  0
LINE
  5
B6
330
1F
100
AcDbEntity
  8
0
  6
Continuous
 62
     7
370
    25
100
AcDbLine
 10
198.9318125777
 20
-65.9257189698
 30
0.0
 11
198.9318125777
 21
-49.9257189698
 31
0.0
  0
LINE
  5
B7
330
1F
100
AcDbEntity
  8
0
  6
Continuous
 62
     7
370
    25
100
AcDbLine
 10
93.4318125777
 20
-65.9257189698
 30
0.0
 11
101.9318125777
 21
-82.9257189698
 31
0.0
  0
LINE
  5
B8
330
1F
100
AcDbEntity
  8
0
  6
Continuous
 62
     7
370
    25
100
AcDbLine
 10
176.9318125777
 20
-82.9257189698
 30
0.0
 11
185.4318125777
 21
-65.9257189698
 31
0.0
  0
LINE
  5
B9
330
1F
100
AcDbEntity
  8
0
  6
Continuous
 62
     7
370
    25
100
AcDbLine
 10
101.9318125777
 20
-82.9257189698
 30
0.0
 11
101.9318125777
 21
-179.9257189698
 31
0.0
  0
LINE
  5
BA
330
1F
100
AcDbEntity
  8
0
  6
Continuous
 62
     7
370
    25
100
AcDbLine
 10
176.9318125777
 20
-179.9257189698
 30
0.0
 11
176.9318125777
 21
-82.9257189698
 31
0.0
  0
LINE
  5
BB
330
1F
100
AcDbEntity
  8
0
  6
Continuous
 62
     7
370
    25
100
AcDbLine
 10
79.9318125777
 20
-49.9257189698
 30
0.0
 11
198.9318125777
 21
-49.9257189698
 31
0.0
  0
LINE
  5
BC
330
1F
100
AcDbEntity
  8
0
  6
Continuous
 62
     7
370
    25
100
AcDbLine
 10
79.9318125777
 20
-65.9257189698
 30
0.0
 11
198.9318125777
 21
-65.9257189698
 31
0.0
  0
LINE
  5
BD
330
1F
100
AcDbEntity
  8
0
  6
Continuous
 62
     7
370
    25
100
AcDbLine
 10
101.9318125777
 20
-82.9257189698
 30
0.0
 11
176.9318125777
 21
-82.9257189698
 31
0.0
  0
LINE
  5
BE
330
1F
100
AcDbEntity
  8
0
  6
Continuous
 62
     7
370
    25
100
AcDbLine
 10
101.9318125777
 20
-179.9257189698
 30
0.0
 11
176.9318125777
 21
-179.9257189698
 31
0.0
  0
LINE
  5
BF
330
1F
100
AcDbEntity
  8
0
  6
Continuous
 62
     7
370
    25
100
AcDbLine
 10
392.5453304365
 20
-54.0702068782
 30
0.0
 11
323.9559726614
 21
-93.6660003016
 31
0.0
  0
LINE
  5
C0
330
1F
100
AcDbEntity
  8
0
  6
Continuous
 62
     7
370
    25
100
AcDbLine
 10
361.4529251353
 20
-158.6196649802
 30
0.0
 11
430.0422829104
 21
-119.0238715568
 31
0.0
  0
LINE
  5
C1
330
1F
100
AcDbEntity
  8
0
  6
Continuous
 62
     7
370
    25
100
AcDbLine
 10
404.8807481567
 20
-21.5463980608
 30
0.0
 11
393.5670396577
 21
-28.0776629553
 31
0.0
  0
LINE
  5
C2
330
1F
100
AcDbEntity
  8
0
  6
Continuous
 62
     7
370
    25
100
AcDbLine
 10
453.0622042495
 20
-131.1374775786
 30
0.0
 11
464.3759127485
 21
-124.6062126841
 31
0.0
  0
LINE
  5
C3
330
1F
100
AcDbEntity
  8
0
  6
Continuous
 62
     7
370
    25
100
AcDbLine
 10
393.6690405373
 20
-47.0378440768
 30
0.0
 11
389.1195830217
 21
-56.0478487655
 31
0.0
  0
LINE
  5
C4
330
1F
100
AcDbEntity
  8
0
  6
Continuous
 62
     7
370
    25
100
AcDbLine
 10
426.6165354956
 20
-121.001513444
 30
0.0
 11
436.6941041337
 21
-121.5675156698
 31
0.0
  0
LWPOLYLINE
  5
C5
330
1F
100
AcDbEntity
  8
0
  6
Continuous
 62
     7
370
    25
100
AcDbPolyline
 90
       52
 70
   128
 43
0.0
 10
392.5453304365
 20
-54.0702068782
 10
393.1420103993
 20
-53.7470064684
 10
394.3915507119
 20
-53.1962429634
 10
395.7077965068
 20
-52.7770998147
 10
397.0855531633
 20
-52.4912311888
 10
398.5193833052
 20
-52.3397652786
 10
400.0036282601
 20
-52.3232998509
 10
401.5324303913
 20
-52.441899887
 10
403.099756215
 20
-52.6950973269
 10
404.6994202124
 20
-53.081892916
 10
406.3251092405
 20
-53.6007601488
 10
407.9704074474
 20
-54.2496512934
 10
409.6288215927
 20
-55.0260054728
 10
411.2938066734
 20
-55.9267587718
 10
412.9587917542
 20
-56.9483563286
 10
414.6172058995
 20
-58.0867663645
 10
416.2625041064
 20
-59.337496095
 10
417.8881931344
 20
-60.6956094614
 10
419.4878571319
 20
-62.1557466107
 10
421.0551829556
 20
-63.7121450485
 10
422.5839850867
 20
-65.3586623814
 10
424.0682300416
 20
-67.0888005575
 10
425.5020601836
 20
-68.8957315121
 10
426.8798168401
 20
-70.772324114
 10
428.196062635
 20
-72.7111723097
 10
429.4456029476
 20
-74.7046243511
 10
430.623506413
 20
-76.7448129936
 10
431.7251243845
 20
-78.8236865448
 10
432.7461092791
 20
-80.9330406406
 10
433.682431736
 20
-83.064550624
 10
434.5303965181
 20
-85.2098043988
 10
435.2866570959
 20
-87.3603356286
 10
435.9482288544
 20
-89.507657149
 10
436.5125008721
 20
-91.643294463
 10
436.9772462251
 20
-93.7588191857
 10
437.3406307758
 20
-95.8458823077
 10
437.6012204115
 20
-97.8962471443
 10
437.7579867038
 20
-99.9018218421
 10
437.8103109679
 20
-101.8546913142
 10
437.7579867038
 20
-103.7471484768
 10
437.6012204115
 20
-105.5717246661
 10
437.3406307758
 20
-107.3212191135
 10
436.9772462251
 20
-108.9887273637
 10
436.5125008721
 20
-110.5676685235
 10
435.9482288544
 20
-112.0518112333
 10
435.2866570959
 20
-113.43529826
 10
434.5303965181
 20
-114.7126696123
 10
433.682431736
 20
-115.8788840892
 10
432.7461092791
 20
-116.9293391747
 10
431.7251243845
 20
-117.8598892027
 10
430.623506413
 20
-118.6668617173
 10
430.0422829104
 20
-119.0238715568
  0
LWPOLYLINE
  5
C6
330
1F
100
AcDbEntity
  8
0
  6
Continuous
 62
     7
370
    25
100
AcDbPolyline
 90
      101
 70
   128
 43
0.0
 10
316.1879446038
 20
-110.8351805442
 10
316.240268868
 20
-108.9427233816
 10
316.3970351603
 20
-107.1181471923
 10
316.657624796
 20
-105.3686527448
 10
317.0210093467
 20
-103.7011444946
 10
317.4857546997
 20
-102.1222033349
 10
318.0500267174
 20
-100.6380606251
 10
318.7115984759
 20
-99.2545735984
 10
319.4678590537
 20
-97.977202246
 10
320.3158238358
 20
-96.8109877692
 10
321.2521462927
 20
-95.7605326836
 10
322.2731311873
 20
-94.8299826557
 10
323.3747491588
 20
-94.0230101411
 10
324.5526526242
 20
-93.3427998918
 10
325.8021929368
 20
-92.7920363868
 10
327.1184387317
 20
-92.3728932381
 10
328.4961953882
 20
-92.0870246122
 10
329.9300255301
 20
-91.935558702
 10
331.4142704851
 20
-91.9190932743
 10
332.9430726162
 20
-92.0376933104
 10
334.5103984399
 20
-92.2908907504
 10
336.1100624373
 20
-92.6776863394
 10
337.7357514654
 20
-93.1965535722
 10
339.3810496723
 20
-93.8454447168
 10
341.0394638176
 20
-94.6217988962
 10
342.7044488983
 20
-95.5225521952
 10
344.3694339791
 20
-96.544149752
 10
346.0278481244
 20
-97.6825597879
 10
347.6731463313
 20
-98.9332895184
 10
349.2988353593
 20
-100.2914028848
 10
350.8984993568
 20
-101.7515400341
 10
352.4658251805
 20
-103.3079384719
 10
353.9946273116
 20
-104.9544558048
 10
355.4788722666
 20
-106.6845939809
 10
356.9127024085
 20
-108.4915249355
 10
358.290459065
 20
-110.3681175374
 10
359.6067048599
 20
-112.3069657331
 10
360.8562451725
 20
-114.3004177745
 10
362.0341486379
 20
-116.340606417
 10
363.1357666094
 20
-118.4194799682
 10
364.156751504
 20
-120.528834064
 10
365.0930739609
 20
-122.6603440474
 10
365.941038743
 20
-124.8055978222
 10
366.6972993208
 20
-126.956129052
 10
367.3588710793
 20
-129.1034505724
 10
367.923143097
 20
-131.2390878864
 10
368.38788845
 20
-133.3546126091
 10
368.7512730007
 20
-135.4416757311
 10
369.0118626364
 20
-137.4920405677
 10
369.1686289287
 20
-139.4976152655
 10
369.2209531928
 20
-141.4504847376
 10
369.1686289287
 20
-143.3429419002
 10
369.0118626364
 20
-145.1675180895
 10
368.7512730007
 20
-146.9170125369
 10
368.38788845
 20
-148.5845207871
 10
367.923143097
 20
-150.1634619469
 10
367.3588710793
 20
-151.6476046567
 10
366.6972993208
 20
-153.0310916834
 10
365.941038743
 20
-154.3084630357
 10
365.0930739609
 20
-155.4746775126
 10
364.156751504
 20
-156.5251325981
 10
363.1357666094
 20
-157.4556826261
 10
362.0341486379
 20
-158.2626551407
 10
360.8562451725
 20
-158.94286539
 10
359.6067048599
 20
-159.493628895
 10
358.290459065
 20
-159.9127720436
 10
356.9127024085
 20
-160.1986406695
 10
355.4788722665
 20
-160.3501065797
 10
353.9946273116
 20
-160.3665720075
 10
352.4658251805
 20
-160.2479719714
 10
350.8984993568
 20
-159.9947745314
 10
349.2988353593
 20
-159.6079789423
 10
347.6731463313
 20
-159.0891117095
 10
346.0278481244
 20
-158.440220565
 10
344.3694339791
 20
-157.6638663856
 10
342.7044488983
 20
-156.7631130866
 10
341.0394638176
 20
-155.7415155298
 10
339.3810496723
 20
-154.6031054939
 10
337.7357514654
 20
-153.3523757634
 10
336.1100624373
 20
-151.994262397
 10
334.5103984399
 20
-150.5341252477
 10
332.9430726162
 20
-148.9777268099
 10
331.4142704851
 20
-147.331209477
 10
329.9300255301
 20
-145.6010713008
 10
328.4961953882
 20
-143.7941403463
 10
327.1184387317
 20
-141.9175477443
 10
325.8021929368
 20
-139.9786995487
 10
324.5526526242
 20
-137.9852475073
 10
323.3747491588
 20
-135.9450588648
 10
322.2731311873
 20
-133.8661853135
 10
321.2521462927
 20
-131.7568312177
 10
320.3158238358
 20
-129.6253212344
 10
319.4678590537
 20
-127.4800674595
 10
318.7115984759
 20
-125.3295362298
 10
318.0500267174
 20
-123.1822147094
 10
317.4857546997
 20
-121.0465773954
 10
317.0210093467
 20
-118.9310526726
 10
316.657624796
 20
-116.8439895506
 10
316.3970351603
 20
-114.7936247141
 10
316.240268868
 20
-112.7880500162
 10
316.1879446038
 20
-110.8351805442
  0
LWPOLYLINE
  5
C7
330
1F
100
AcDbEntity
  8
0
  6
Continuous
 62
     7
370
    25
100
AcDbPolyline
 90
       92
 70
   128
 43
0.0
 10
320.9962707159
 20
-113.6109681244
 10
321.0479953934
 20
-111.9113717336
 10
321.2029229341
 20
-110.279594735
 10
321.4603150377
 20
-108.7234132891
 10
321.8189451137
 20
-107.2502433092
 10
322.2771041265
 20
-105.8671051211
 10
322.8326087397
 20
-104.5805900081
 10
323.4828117208
 20
-103.3968288007
 10
324.2246145565
 20
-102.32146266
 10
325.0544822186
 20
-101.3596161955
 10
325.9684600096
 20
-100.5158730436
 10
326.9621924092
 20
-99.7942540246
 10
328.03094383
 20
-99.1981979817
 10
329.1696211847
 20
-98.7305453936
 10
330.3727981571
 20
-98.3935248377
 10
331.6347410612
 20
-98.1887423704
 10
332.9494361642
 20
-98.1171738735
 10
334.3106183454
 20
-98.1791604034
 10
335.7118009516
 20
-98.3744065661
 10
337.1463067097
 20
-98.7019819248
 10
338.6072995465
 20
-99.1603254336
 10
340.0878171658
 20
-99.747252877
 10
341.580804227
 20
-100.4599672784
 10
343.0791459667
 20
-101.2950722293
 10
344.5757021042
 20
-102.2485880741
 10
346.063340868
 20
-103.3159708756
 10
347.534972982
 20
-104.4921340688
 10
348.9835854489
 20
-105.7714727003
 10
350.4022749706
 20
-107.147890139
 10
351.7842808456
 20
-108.6148271289
 10
353.1230171863
 20
-110.1652930474
 10
354.4121043046
 20
-111.7918992181
 10
355.6453991132
 20
-113.486894122
 10
356.8170244008
 20
-115.2422003364
 10
357.9213968393
 20
-117.0494530279
 10
358.9532535911
 20
-118.9000398143
 10
359.9076773889
 20
-120.7851418069
 10
360.7801199686
 20
-122.6957756362
 10
361.566423744
 20
-124.6228362618
 10
362.2628416196
 20
-126.5571403625
 10
362.866054847
 20
-128.4894700982
 10
363.3731888406
 20
-130.4106170377
 10
363.7818268758
 20
-132.3114260411
 10
364.0900216064
 20
-134.1828388877
 10
364.2963043441
 20
-136.0159374432
 10
364.3996920577
 20
-137.8019861581
 10
364.3996920577
 20
-139.5324736969
 10
364.2963043441
 20
-141.1991534985
 10
364.0900216064
 20
-142.7940830746
 10
363.7818268758
 20
-144.3096618595
 10
363.3731888406
 20
-145.7386674299
 10
362.866054847
 20
-147.0742899238
 10
362.2628416196
 20
-148.3101644915
 10
361.566423744
 20
-149.440401628
 10
360.7801199686
 20
-150.4596152387
 10
359.9076773889
 20
-151.3629483065
 10
358.9532535911
 20
-152.1460960379
 10
357.9213968393
 20
-152.8053263774
 10
356.8170244008
 20
-153.3374977923
 10
355.6453991132
 20
-153.7400742433
 10
354.4121043046
 20
-154.0111372704
 10
353.1230171863
 20
-154.1493951347
 10
351.7842808456
 20
-154.1541889747
 10
350.4022749706
 20
-154.0254959454
 10
348.9835854489
 20
-153.7639293278
 10
347.534972982
 20
-153.3707356059
 10
346.063340868
 20
-152.8477885268
 10
344.5757021042
 20
-152.1975801716
 10
343.0791459667
 20
-151.4232090791
 10
341.580804227
 20
-150.5283654803
 10
340.0878171658
 20
-149.5173137123
 10
338.6072995465
 20
-148.3948718974
 10
337.1463067097
 20
-147.166388982
 10
335.7118009516
 20
-145.8377192464
 10
334.3106183454
 20
-144.4151944072
 10
332.9494361642
 20
-142.905593443
 10
331.6347410612
 20
-141.3161102899
 10
330.3727981571
 20
-139.6543195589
 10
329.1696211847
 20
-137.9281404396
 10
328.03094383
 20
-136.1457989616
 10
326.9621924092
 20
-134.3157887938
 10
325.9684600096
 20
-132.446830768
 10
325.0544822186
 20
-130.5478313203
 10
324.2246145565
 20
-128.6278400479
 10
323.4828117208
 20
-126.6960065835
 10
322.8326087397
 20
-124.7615369934
 10
322.2771041265
 20
-122.833649906
 10
321.8189451137
 20
-120.9215325814
 10
321.4603150377
 20
-119.0342971293
 10
321.2029229341
 20
-117.1809370862
 10
321.0479953934
 20
-115.3702845566
 10
320.9962707159
 20
-113.6109681244
  0
LWPOLYLINE
  5
C8
330
1F
100
AcDbEntity
  8
0
  6
Continuous
 62
     7
370
    25
100
AcDbPolyline
 90
       66
 70
   128
 43
0.0
 10
404.8807481567
 20
-21.5463980608
 10
405.0628792352
 20
-21.4425354856
 10
406.579373566
 20
-20.6718794306
 10
408.1645083946
 20
-20.0294657874
 10
409.8144046303
 20
-19.5168666497
 10
411.5250247006
 20
-19.1353364337
 10
413.2921824315
 20
-18.8858088076
 10
415.1115532919
 20
-18.7688944074
 10
416.9786849766
 20
-18.7848793422
 10
418.8890083013
 20
-18.9337244942
 10
420.8378483847
 20
-19.2150656143
 10
422.8204360887
 20
-19.6282142138
 10
424.8319196888
 20
-20.1721592487
 10
426.8673767477
 20
-20.8455695943
 10
428.9218261608
 20
-21.6467973029
 10
430.9902403461
 20
-22.5738816357
 10
433.0675575476
 20
-23.6245538623
 10
435.1486942219
 20
-24.7962428114
 10
437.2285574789
 20
-26.086081164
 10
439.3020575446
 20
-27.4909124695
 10
441.364120217
 20
-29.0072988702
 10
443.4096992831
 20
-30.6315295146
 10
445.4337888681
 20
-32.359629638
 10
447.4314356857
 20
-34.1873702899
 10
449.3977511594
 20
-36.1102786826
 10
451.3279233856
 20
-38.123649137
 10
453.2172289096
 20
-40.2225545984
 10
455.0610442841
 20
-42.4018586932
 10
456.8548573839
 20
-44.6562282992
 10
458.5942784477
 20
-46.9801465962
 10
460.2750508208
 20
-49.3679265667
 10
461.8930613716
 20
-51.813724913
 10
463.4443505569
 20
-54.3115563567
 10
464.9251221123
 20
-56.8553082857
 10
466.3317523417
 20
-59.4387557127
 10
467.6607989851
 20
-62.055576509
 10
468.9090096427
 20
-64.6993668755
 10
470.0733297339
 20
-67.3636570144
 10
471.1509099722
 20
-70.041926961
 10
472.1391133383
 20
-72.7276225401
 10
473.035521533
 20
-75.4141714045
 10
473.8379408951
 20
-78.0949991189
 10
474.5444077701
 20
-80.7635452488
 10
475.1531933151
 20
-83.4132794145
 10
475.6628077298
 20
-86.0377172726
 10
476.0720039025
 20
-88.6304363837
 10
476.3797804614
 20
-91.1850919299
 10
476.5853842258
 20
-93.6954322408
 10
476.6883120488
 20
-96.1553140932
 10
476.6883120488
 20
-98.5587177438
 10
476.5853842258
 20
-100.8997616612
 10
476.3797804614
 20
-103.1727169186
 10
476.0720039025
 20
-105.3720212137
 10
475.6628077298
 20
-107.4922924803
 10
475.1531933151
 20
-109.5283420593
 10
474.5444077701
 20
-111.4751873962
 10
473.8379408951
 20
-113.3280642342
 10
473.035521533
 20
-115.0824382732
 10
472.1391133383
 20
-116.734016266
 10
471.1509099722
 20
-118.2787565245
 10
470.0733297339
 20
-119.7128788104
 10
468.9090096427
 20
-121.0328735861
 10
467.6607989851
 20
-122.2355106032
 10
466.3317523417
 20
-123.3178468074
 10
464.9251221123
 20
-124.2772335407
 10
464.3759127485
 20
-124.6062126841
  0
LWPOLYLINE
  5
C9
330
1F
100
AcDbEntity
  8
0
  6
Continuous
 62
     7
370
    25
100
AcDbPolyline
 90
       99
 70
   128
 43
0.0
 10
381.241768473
 20
-55.3194289403
 10
381.2932481343
 20
-52.9464791695
 10
381.447561139
 20
-50.6387735563
 10
381.7043298572
 20
-48.401959443
 10
382.0629259329
 20
-46.2415106885
 10
382.5224718213
 20
-44.162714273
 10
383.0818429367
 20
-42.1706573597
 10
383.7396704042
 20
-40.2702148457
 10
384.4943444098
 20
-38.4660374321
 10
385.3440181397
 20
-36.7625402436
 10
386.2866123
 20
-35.1638920231
 10
387.3198202047
 20
-33.6740049308
 10
388.4411134209
 20
-32.29652497
 10
389.6477479564
 20
-31.0348230651
 10
390.9367709741
 20
-29.8919868119
 10
392.3050280188
 20
-28.8708129224
 10
393.7491707362
 20
-27.9738003802
 10
395.2656650671
 20
-27.2031443252
 10
396.8507998956
 20
-26.5607306819
 10
398.5006961313
 20
-26.0481315443
 10
400.2113162016
 20
-25.6666013283
 10
401.9784739325
 20
-25.4170737022
 10
403.797844793
 20
-25.300159302
 10
405.6649764776
 20
-25.3161442368
 10
407.5752998023
 20
-25.4649893888
 10
409.5241398857
 20
-25.7463305089
 10
411.5067275897
 20
-26.1594791084
 10
413.5182111898
 20
-26.7034241433
 10
415.5536682487
 20
-27.3768344889
 10
417.6081176618
 20
-28.1780621974
 10
419.6765318471
 20
-29.1051465303
 10
421.7538490486
 20
-30.1558187568
 10
423.834985723
 20
-31.327507706
 10
425.9148489799
 20
-32.6173460586
 10
427.9883490457
 20
-34.0221773641
 10
430.050411718
 20
-35.5385637648
 10
432.0959907841
 20
-37.1627944092
 10
434.1200803691
 20
-38.8908945326
 10
436.1177271867
 20
-40.7186351844
 10
438.0840426604
 20
-42.6415435771
 10
440.0142148866
 20
-44.6549140316
 10
441.9035204106
 20
-46.7538194929
 10
443.7473357851
 20
-48.9331235878
 10
445.5411488849
 20
-51.1874931938
 10
447.2805699487
 20
-53.5114114908
 10
448.9613423219
 20
-55.8991914613
 10
450.5793528726
 20
-58.3449898076
 10
452.1306420579
 20
-60.8428212513
 10
453.6114136134
 20
-63.3865731803
 10
455.0180438427
 20
-65.9700206073
 10
456.3470904861
 20
-68.5868414036
 10
457.5953011437
 20
-71.2306317701
 10
458.7596212349
 20
-73.8949219089
 10
459.8372014732
 20
-76.5731918556
 10
460.8254048393
 20
-79.2588874346
 10
461.721813034
 20
-81.945436299
 10
462.5242323961
 20
-84.6262640135
 10
463.2306992711
 20
-87.2948101434
 10
463.8394848161
 20
-89.9445443091
 10
464.3490992308
 20
-92.5689821671
 10
464.7582954035
 20
-95.1617012783
 10
465.0660719624
 20
-97.7163568245
 10
465.2716757268
 20
-100.2266971354
 10
465.3746035498
 20
-102.6865789877
 10
465.3746035498
 20
-105.0899826383
 10
465.2716757268
 20
-107.4310265557
 10
465.0660719624
 20
-109.7039818132
 10
464.7582954035
 20
-111.9032861083
 10
464.3490992308
 20
-114.0235573748
 10
463.8394848161
 20
-116.0596069538
 10
463.2306992711
 20
-118.0064522907
 10
462.5242323961
 20
-119.8593291288
 10
461.721813034
 20
-121.6137031678
 10
460.8254048393
 20
-123.2652811606
 10
459.8372014732
 20
-124.8100214191
 10
458.7596212349
 20
-126.2441437049
 10
457.5953011437
 20
-127.5641384806
 10
456.3470904861
 20
-128.7667754978
 10
455.0180438427
 20
-129.849111702
 10
453.6114136134
 20
-130.8084984353
 10
452.1306420579
 20
-131.6425879176
 10
450.5793528726
 20
-132.349338992
 10
448.9613423219
 20
-132.9270221204
 10
447.2805699487
 20
-133.3742236153
 10
445.5411488849
 20
-133.6898490997
 10
443.7473357851
 20
-133.8731261851
 10
441.9035204106
 20
-133.9236063619
 10
440.0142148866
 20
-133.8411660965
 10
438.0840426604
 20
-133.6260071341
 10
436.1177271867
 20
-133.2786560047
 10
434.1200803691
 20
-132.7999627348
 10
432.0959907841
 20
-132.191098767
 10
430.050411718
 20
-131.4535540935
 10
427.9883490457
 20
-130.5891336096
 10
425.9148489799
 20
-129.5999526972
 10
423.834985723
 20
-128.4884320477
 10
421.7538490486
 20
-127.2572917383
 10
419.6765318471
 20
-125.9095445758
 10
418.9636023356
 20
-125.4194577187
  0
ARC
  5
CA
330
1F
100
AcDbEntity
  8
0
  6
Continuous
 62
     7
370
    25
100
AcDbCircle
 10
442.3633220634
 20
-55.2266872885
 30
0.0
 40
61.12162395023888
100
AcDbArc
 50
180.0869366179
 51
184.9172032789
  0
LWPOLYLINE
  5
CB
330
1F
100
AcDbEntity
  8
0
  6
Continuous
 62
     7
370
    25
100
AcDbPolyline
 90
       70
 70
   128
 43
0.0
 10
393.6690405373
 20
-47.0378440768
 10
394.0661880638
 20
-46.2890606525
 10
394.9181687772
 20
-44.8963968142
 10
395.8611118909
 20
-43.6149233291
 10
396.891996874
 20
-42.448745143
 10
398.0075214909
 20
-41.4015978762
 10
399.2041123801
 20
-40.4768358571
 10
400.4779365002
 20
-39.6774213773
 10
401.8249134085
 20
-39.0059152024
 10
403.2407283319
 20
-38.464468369
 10
404.7208459883
 20
-38.0548152947
 10
406.2605251147
 20
-37.7782682216
 10
407.8548336546
 20
-37.6357130135
 10
409.4986645573
 20
-37.6276063176
 10
411.1867521366
 20
-37.7539741022
 10
412.9136889392
 20
-38.0144115731
 10
414.6739430659
 20
-38.4080844706
 10
416.461875892
 20
-38.9337317418
 10
418.2717601297
 20
-39.5896695799
 10
420.0977981741
 20
-40.3737968183
 10
421.9341406749
 20
-41.2836016611
 10
423.7749052733
 20
-42.3161697291
 10
425.6141954456
 20
-43.4681933954
 10
427.4461193906
 20
-44.735982381
 10
429.2648089039
 20
-46.1154755754
 10
431.0644381745
 20
-47.6022540463
 10
432.8392424474
 20
-49.1915551937
 10
434.5835364894
 20
-50.8782880072
 10
436.2917328008
 20
-52.6570493728
 10
437.9583595139
 20
-54.5221413819
 10
439.5780779209
 20
-56.4675895822
 10
441.1456995754
 20
-58.4871621169
 10
442.6562029126
 20
-60.5743896861
 10
444.1047493351
 20
-62.7225862708
 10
445.4866987118
 20
-64.9248705496
 10
446.7976242423
 20
-67.174187942
 10
448.033326637
 20
-69.4633332064
 10
449.1898475684
 20
-71.7849735204
 10
450.2634823515
 20
-74.13167197
 10
451.2507918103
 20
-76.4959113728
 10
452.148613295
 20
-78.870118357
 10
452.9540708127
 20
-81.2466876221
 10
453.6645842402
 20
-83.6180063001
 10
454.2778775887
 20
-85.9764783425
 10
454.7919862947
 20
-88.3145488522
 10
455.2052635131
 20
-90.6247282846
 10
455.5163853924
 20
-92.8996164384
 10
455.7243553153
 20
-95.1319261611
 10
455.8285070915
 20
-97.3145066917
 10
455.8285070915
 20
-99.4403665668
 10
455.7243553153
 20
-101.5026960161
 10
455.5163853924
 20
-103.4948887769
 10
455.2052635131
 20
-105.4105632551
 10
454.7919862947
 20
-107.2435829677
 10
454.2778775887
 20
-108.9880762001
 10
453.6645842402
 20
-110.6384548145
 10
452.9540708127
 20
-112.1894321506
 10
452.148613295
 20
-113.6360399605
 10
451.2507918103
 20
-114.9736443233
 10
450.2634823515
 20
-116.1979604888
 10
449.1898475684
 20
-117.3050666034
 10
448.033326637
 20
-118.2914162723
 10
446.7976242423
 20
-119.1538499202
 10
445.4866987118
 20
-119.8896049122
 10
444.1047493351
 20
-120.4963244032
 10
442.6562029126
 20
-120.9720648878
 10
441.1456995754
 20
-121.3153024257
 10
439.5780779209
 20
-121.5249375237
 10
437.9583595139
 20
-121.6002986573
 10
436.6941041337
 20
-121.5675156698
  0
ENDSEC
  0
SECTION
  2
OBJECTS
  0
DICTIONARY
  5
C
330
0
100
AcDbDictionary
281
     1
  3
ACAD_GROUP
350
D
  3
ACAD_LAYOUT
350
1A
  3
ACAD_MLINESTYLE
350
17
  3
ACAD_PLOTSETTINGS
350
19
  3
ACAD_PLOTSTYLENAME
350
E
  3
ACAD_SCALELIST
350
47
  0
DICTIONARY
  5
D
102
{ACAD_REACTORS
330
C
102
}
330
C
100
AcDbDictionary
281
     1
  0
DICTIONARY
  5
1A
102
{ACAD_REACTORS
330
C
102
}
330
C
100
AcDbDictionary
281
     1
  3
Layout1
350
1E
  3
Layout2
350
26
  3
Model
350
22
  0
DICTIONARY
  5
17
102
{ACAD_REACTORS
330
C
102
}
330
C
100
AcDbDictionary
281
     1
  3
Standard
350
18
  0
DICTIONARY
  5
19
102
{ACAD_REACTORS
330
C
102
}
330
C
100
AcDbDictionary
281
     1
  0
ACDBDICTIONARYWDFLT
  5
E
102
{ACAD_REACTORS
330
C
102
}
330
C
100
AcDbDictionary
281
     1
  3
Normal
350
F
100
AcDbDictionaryWithDefault
340
F
  0
DICTIONARY
  5
47
102
{ACAD_REACTORS
330
C
102
}
330
C
100
AcDbDictionary
281
     1
  3
A0
350
48
  3
A1
350
49
  3
A2
350
4A
  3
A3
350
4B
  3
A4
350
4C
  3
A5
350
4D
  3
A6
350
4E
  3
A7
350
4F
  3
A8
350
50
  3
A9
350
51
  3
B0
350
52
  3
B1
350
53
  3
B2
350
54
  3
B3
350
55
  3
B4
350
56
  3
B5
350
57
  3
B6
350
58
  3
B7
350
59
  3
B8
350
5A
  3
B9
350
5B
  3
C0
350
5C
  3
C1
350
5D
  3
C2
350
5E
  3
C3
350
5F
  3
C4
350
60
  3
C5
350
61
  3
C6
350
62
  3
C7
350
63
  3
C8
350
64
  3
C9
350
65
  3
D0
350
66
  3
D1
350
67
  3
D2
350
68
  0
LAYOUT
  5
1E
102
{ACAD_REACTORS
330
1A
102
}
330
1A
100
AcDbPlotSettings
  1

  2
none_device
  4

  6

 40
0.0
 41
0.0
 42
0.0
 43
0.0
 44
0.0
 45
0.0
 46
0.0
 47
0.0
 48
0.0
 49
0.0
140
0.0
141
0.0
142
1.0
143
1.0
 70
   688
 72
     1
 73
     0
 74
     5
  7

 75
    16
147
1.0
148
0.0
149
0.0
100
AcDbLayout
  1
Layout1
 70
     1
 71
     1
 10
0.0
 20
0.0
 11
420.0
 21
297.0
 12
0.0
 22
0.0
 32
0.0
 14
1.0000000000E+20
 24
1.0000000000E+20
 34
1.0000000000E+20
 15
-1.0000000000E+20
 25
-1.0000000000E+20
 35
-1.0000000000E+20
146
0.0
 13
0.0
 23
0.0
 33
0.0
 16
1.0
 26
0.0
 36
0.0
 17
0.0
 27
1.0
 37
0.0
 76
     0
330
1B
  0
LAYOUT
  5
26
102
{ACAD_REACTORS
330
1A
102
}
330
1A
100
AcDbPlotSettings
  1

  2
none_device
  4

  6

 40
0.0
 41
0.0
 42
0.0
 43
0.0
 44
0.0
 45
0.0
 46
0.0
 47
0.0
 48
0.0
 49
0.0
140
0.0
141
0.0
142
1.0
143
1.0
 70
   688
 72
     1
 73
     0
 74
     5
  7

 75
    16
147
1.0
148
0.0
149
0.0
100
AcDbLayout
  1
Layout2
 70
     1
 71
     2
 10
0.0
 20
0.0
 11
0.0
 21
0.0
 12
0.0
 22
0.0
 32
0.0
 14
0.0
 24
0.0
 34
0.0
 15
0.0
 25
0.0
 35
0.0
146
0.0
 13
0.0
 23
0.0
 33
0.0
 16
1.0
 26
0.0
 36
0.0
 17
0.0
 27
1.0
 37
0.0
 76
     0
330
23
  0
LAYOUT
  5
22
102
{ACAD_REACTORS
330
1A
102
}
330
1A
100
AcDbPlotSettings
  1

  2
none_device
  4
Letter_(8.50_x_11.00_Inches)
  6

 40
6.35
 41
6.35
 42
6.35000508
 43
6.35000508
 44
215.9
 45
279.4
 46
0.0
 47
0.0
 48
0.0
 49
0.0
140
0.0
141
0.0
142
1.0
143
1.0
 70
  1712
 72
     1
 73
     0
 74
     0
  7

 75
     0
147
1.0
148
0.0
149
0.0
100
AcDbLayout
  1
Model
 70
     1
 71
     0
 10
0.0
 20
0.0
 11
279.4
 21
215.9
 12
0.0
 22
0.0
 32
0.0
 14
0.0
 24
0.0
 34
0.0
 15
279.4
 25
215.9
 35
0.0
146
0.0
 13
0.0
 23
0.0
 33
0.0
 16
1.0
 26
0.0
 36
0.0
 17
0.0
 27
1.0
 37
0.0
 76
     0
330
1F
331
29
  0
MLINESTYLE
  5
18
102
{ACAD_REACTORS
330
17
102
}
330
17
100
AcDbMlineStyle
  2
Standard
 70
     0
  3

 62
   256
 51
90.0
 52
90.0
 71
     2
 49
0.5
 62
   256
  6
BYLAYER
 49
-0.5
 62
   256
  6
BYLAYER
  0
ACDBPLACEHOLDER
  5
F
102
{ACAD_REACTORS
330
E
102
}
330
E
  0
SCALE
  5
48
102
{ACAD_REACTORS
330
47
102
}
330
47
100
AcDbScale
 70
     0
300
1:1
140
1.0
141
1.0
290
     1
  0
SCALE
  5
49
102
{ACAD_REACTORS
330
47
102
}
330
47
100
AcDbScale
 70
     0
300
1:2
140
1.0
141
2.0
290
     0
  0
SCALE
  5
4A
102
{ACAD_REACTORS
330
47
102
}
330
47
100
AcDbScale
 70
     0
300
1:4
140
1.0
141
4.0
290
     0
  0
SCALE
  5
4B
102
{ACAD_REACTORS
330
47
102
}
330
47
100
AcDbScale
 70
     0
300
1:5
140
1.0
141
5.0
290
     0
  0
SCALE
  5
4C
102
{ACAD_REACTORS
330
47
102
}
330
47
100
AcDbScale
 70
     0
300
1:8
140
1.0
141
8.0
290
     0
  0
SCALE
  5
4D
102
{ACAD_REACTORS
330
47
102
}
330
47
100
AcDbScale
 70
     0
300
1:10
140
1.0
141
10.0
290
     0
  0
SCALE
  5
4E
102
{ACAD_REACTORS
330
47
102
}
330
47
100
AcDbScale
 70
     0
300
1:16
140
1.0
141
16.0
290
     0
  0
SCALE
  5
4F
102
{ACAD_REACTORS
330
47
102
}
330
47
100
AcDbScale
 70
     0
300
1:20
140
1.0
141
20.0
290
     0
  0
SCALE
  5
50
102
{ACAD_REACTORS
330
47
102
}
330
47
100
AcDbScale
 70
     0
300
1:30
140
1.0
141
30.0
290
     0
  0
SCALE
  5
51
102
{ACAD_REACTORS
330
47
102
}
330
47
100
AcDbScale
 70
     0
300
1:40
140
1.0
141
40.0
290
     0
  0
SCALE
  5
52
102
{ACAD_REACTORS
330
47
102
}
330
47
100
AcDbScale
 70
     0
300
1:50
140
1.0
141
50.0
290
     0
  0
SCALE
  5
53
102
{ACAD_REACTORS
330
47
102
}
330
47
100
AcDbScale
 70
     0
300
1:100
140
1.0
141
100.0
290
     0
  0
SCALE
  5
54
102
{ACAD_REACTORS
330
47
102
}
330
47
100
AcDbScale
 70
     0
300
2:1
140
2.0
141
1.0
290
     0
  0
SCALE
  5
55
102
{ACAD_REACTORS
330
47
102
}
330
47
100
AcDbScale
 70
     0
300
4:1
140
4.0
141
1.0
290
     0
  0
SCALE
  5
56
102
{ACAD_REACTORS
330
47
102
}
330
47
100
AcDbScale
 70
     0
300
8:1
140
8.0
141
1.0
290
     0
  0
SCALE
  5
57
102
{ACAD_REACTORS
330
47
102
}
330
47
100
AcDbScale
 70
     0
300
10:1
140
10.0
141
1.0
290
     0
  0
SCALE
  5
58
102
{ACAD_REACTORS
330
47
102
}
330
47
100
AcDbScale
 70
     0
300
100:1
140
100.0
141
1.0
290
     0
  0
SCALE
  5
59
102
{ACAD_REACTORS
330
47
102
}
330
47
100
AcDbScale
 70
     0
300
1/128" = 1'-0"
140
0.0078125
141
12.0
290
     0
  0
SCALE
  5
5A
102
{ACAD_REACTORS
330
47
102
}
330
47
100
AcDbScale
 70
     0
300
1/64" = 1'-0"
140
0.015625
141
12.0
290
     0
  0
SCALE
  5
5B
102
{ACAD_REACTORS
330
47
102
}
330
47
100
AcDbScale
 70
     0
300
1/32" = 1'-0"
140
0.03125
141
12.0
290
     0
  0
SCALE
  5
5C
102
{ACAD_REACTORS
330
47
102
}
330
47
100
AcDbScale
 70
     0
300
1/16" = 1'-0"
140
0.0625
141
12.0
290
     0
  0
SCALE
  5
5D
102
{ACAD_REACTORS
330
47
102
}
330
47
100
AcDbScale
 70
     0
300
3/32" = 1'-0"
140
0.09375
141
12.0
290
     0
  0
SCALE
  5
5E
102
{ACAD_REACTORS
330
47
102
}
330
47
100
AcDbScale
 70
     0
300
1/8" = 1'-0"
140
0.125
141
12.0
290
     0
  0
SCALE
  5
5F
102
{ACAD_REACTORS
330
47
102
}
330
47
100
AcDbScale
 70
     0
300
3/16" = 1'-0"
140
0.1875
141
12.0
290
     0
  0
SCALE
  5
60
102
{ACAD_REACTORS
330
47
102
}
330
47
100
AcDbScale
 70
     0
300
1/4" = 1'-0"
140
0.25
141
12.0
290
     0
  0
SCALE
  5
61
102
{ACAD_REACTORS
330
47
102
}
330
47
100
AcDbScale
 70
     0
300
3/8" = 1'-0"
140
0.375
141
12.0
290
     0
  0
SCALE
  5
62
102
{ACAD_REACTORS
330
47
102
}
330
47
100
AcDbScale
 70
     0
300
1/2" = 1'-0"
140
0.5
141
12.0
290
     0
  0
SCALE
  5
63
102
{ACAD_REACTORS
330
47
102
}
330
47
100
AcDbScale
 70
     0
300
3/4" = 1'-0"
140
0.75
141
12.0
290
     0
  0
SCALE
  5
64
102
{ACAD_REACTORS
330
47
102
}
330
47
100
AcDbScale
 70
     0
300
1" = 1'-0"
140
1.0
141
12.0
290
     0
  0
SCALE
  5
65
102
{ACAD_REACTORS
330
47
102
}
330
47
100
AcDbScale
 70
     0
300
1-1/2" = 1'-0"
140
1.5
141
12.0
290
     0
  0
SCALE
  5
66
102
{ACAD_REACTORS
330
47
102
}
330
47
100
AcDbScale
 70
     0
300
3" = 1'-0"
140
3.0
141
12.0
290
     0
  0
SCALE
  5
67
102
{ACAD_REACTORS
330
47
102
}
330
47
100
AcDbScale
 70
     0
300
6" = 1'-0"
140
6.0
141
12.0
290
     0
  0
SCALE
  5
68
102
{ACAD_REACTORS
330
47
102
}
330
47
100
AcDbScale
 70
     0
300
1'-0" = 1'-0"
140
12.0
141
12.0
290
     0
  0
ENDSEC
  0
EOF
